Down Today/Tabs

From JoCopedia
Jump to navigation Jump to search



This song is an unusual one for the ukulele as it's mostly blues riffs and implied chords, but here's my best shot at tabbing it as close as I possibly can to the way Jonathan plays it. Tuning is GCEA, which is somewhat standard.

Here's the video lesson to go along with this tab. http://www.youtube.com/watch?v=vDC4hj8ezhE

Intro / Interlude
                                                              |--3--|
|-----------------|-----------7\----|---6-----6-7-----|--------0---------|-----------0-----|
|-------3-------3-|-------3---------|-------0-------8-|------6-------0---|-------6-------8-|
|-----------------|---------------0-|-----------------|------------5-----|---0-------------|
|-0---0---0---0---|-0---0---0---0---|-0---0-------0---|-0---0----0-----0-|-0---0---0---0---|

        |--3--|
|--------0---------|-----------------|-----------------|-----------------|
|------6-----------|---3-------3-----|-------3-------3-|-------3---3---3-|
|------------5---4-|-------2-------0-|-----------------|-----------------|
|-0---0----0---0---|-0---0---0---0---|-0---0---0---0---|-0---0---0---0---|


Verse

|-7-----5-----3-----0-----|-----------------|--------------0-----|--------------3-----|
|-------------------------|-3-1---0---------|----1-----3---------|----1-----0-------0-|
|---(0)---(0)---(0)---(0)-|---0---0-------0-|-h2---(2)-0-------0-|-h2---(2)-0---------|
|-0-----0-----0-----0-----|-0---0---0---0---|--0----0----0---0---|--0----0----0---0---|

|-7-----5-----3-----0-----|-----------------|----------2---0-2---|-3---------------|
|-------------------------|-3-1---0---------|----1-------------0-|-----------------|
|---(0)---(0)---(0)---(0)-|---0---0-------0-|-h2---(2)-----------|-----------------|
|-0-----0-----0-----0-----|-0---0---0---0---|--0----0----0---0---|-0---0---0---0---|


Refrain

|---3---3---3---0-|---------0---------|---------------3-|-----5---5/7-----|
|---1---1---1---1-|-----------3-1-----|---------0-1-----|-----6---6/8---0-|
|-----------------|----------------4~-|-----------------|-----5---5/7-----|
|-3---3---3---3-2-|-2---2---2--(2)----|-0---0---0---0---|-0---0---0-0-----|

|---3---3---3---0-|---------0---------|-----------------|---3-----3-----3-|-----3-----3-----|
|---1---1---1---1-|-----------3-1-----|---------0-1-----|-------1-----1---|---1-----1-----3-|
|-----------------|----------------4~-|---------------2-|-----------------|-----------------|
|-3---3---3---3-2-|-2---2---2--(2)----|-0---0---0---0---|-0---0-----0-----|-0-----0-----0---|


Ending

|-----------2---0-2---|-3---------------|----------2---------|---------0-2-----|
|-----1-------------0-|-----------------|----1---------------|---------------0-|
|-0h2---(2)-----------|---------------0-|-h2---(2)-----------|-----------------|
|---0----0----0---0---|-0---0---0---0---|--0----0----0---0---|-0---0---0---0---|

|---3---3---3---0-|---------0---------|---------2---3-5-|-7---|
|---1---1---1---1-|-----------3-1-----|-----1-3---------|-8---|
|-----------------|----------------4~-|-----------------|-0---|
|-3---3---3---3-2-|-2---2---2--(2)----|---------0-----0-|-0---|