Pizza Day/Tabs

From JoCopedia
Jump to navigation Jump to search



Transcribed by: Alden Chew, modified by Caleb

Song structure is:
Intro
Verse, Fill 1, Verse, Fill2, Prechorus, Chorus
Verse, Fill 1, Verse, Fill2, Prechorus, Chorus

Intro:
E||-------------------------|-------------------------|-------------------------|-------------------------|
B||--------3----------------|--------3----------------|--------3----------------|--------3----------------|
G||-----2-----2--------2----|-----2-----2--------2----|-----2-----2--------2----|-----2-----2--------2----|
D||--0--------------0-------|--0--------------0-------|--0--------------0-------|--0--------------0-------|
A||-------------------------|-------------------------|-------------------------|-------------------------|
E||--------------3----------|--------------3----------|--------------3----------|--------------3----------|

Verse:
E||--------------------------|--------------------------|--------------------------|--------------------------|
B||--------3-----------3-----|--------------------------|--------------------------|--------------------------|
G||-----2-----2-----2-----2--|--------0-----------0-----|--------0-----------0-----|--------0-----------0-----|
D||--0-----------0-----------|-----0-----0-----0-----0--|-----2-----2-----2-----2--|-----2-----2-----2-----2--|
A||--------------------------|--------------------------|--------------------------|--0-----------0-----------|
E||--------------------------|--3-----------3-----2-----|--0-----------0-----------|--------------------------|

E||--------------------------|--------------------------|
B||--------------------------|--------------------------|
G||--------0-----------0-----|--------2-----------2-----|
D||-----0-----0-----0-----0--|-----2-----2-----2-----2--|
A||--------------------------|--0-----------0-----------|
E||--3-----------3-----------|--------------------------|

Fill 1:
E||-------------------------|-------------------------|
B||--------3----------------|--------3----------------|
G||-----2-----2--------2----|-----2-----2--------2----|
D||--0--------------0-------|--0--------------0-------|
A||-------------------------|-------------------------|
E||--------------3----------|--------------3----------|

Fill 2:
E||-------------------------|--------------------------|
B||--------3----------------|--------1-----------1-----|
G||-----2-----2--------2----|-----2-----2-----2-----2--|
D||--0--------------0-------|--0-----------0-----------|
A||-------------------------|--------------------------|
E||--------------3----------|--------------------------|

Prechorus:
E||--------------------------|--------------------------|--------------------------|--------------------------|
B||--------------------------|--------------------------|--------3-----------3-----|--------3-----------3-----|
G||--------0-----------0-----|--------0-----------0-----|-----2-----2-----2-----2--|-----2-----2-----2-----2--|
D||-----0-----0-----0-----0--|-----0-----0-----0-----0--|--0-----------0-----------|--0-----------0-----------|
A||--------------------------|--------------------------|--------------------------|--------------------------|
E||--3-----------3-----------|--3-----------3-----------|--------------------------|--------------------------|

E||--------------------------|--------------------------|--------------------------|------------|
B||--------3-----------3-----|--------3-----------3-----|--------3-----------3-----|--2---------|
G||-----1-----1-----1-----1--|-----1-----1-----1-----1--|-----0-----0-----0-----0--|------------|
D||--------------------------|--------------------------|--------------------------|------------|
A||--------------------------|--------------------------|--0-----------0-----------|------------|
E||--0-----------0-----------|--0-----------0-----------|--------------------------|------------|


Chorus:
E||--------------------------|--------------------------|--------------------------|--------------------------|
B||--------------------------|--------------------------|--------3-----------------|--------3-----------3-----|
G||--------0-----------0-----|--------2-----------2-----|-----2-----2--------2-----|-----2-----2-----2-----2--|
D||-----0-----0-----0-----0--|-----2-----2-----2-----2--|--0--------------0--------|--0-----------0-----------|
A||--------------------------|--0-----------0-----------|--------------------------|--------------------------|
E||--3-----------3-----------|--------------------------|--------------3-----------|--------------------------|

E||--------------------------|--------------------------|--------------------------|--------------------------|
B||--------------------------|--------------------------|--------3-----------------|--------3-----------------|
G||--------0-----------0-----|--------2-----------2-----|-----2-----2--------2-----|-----2-----2--------2-----|
D||-----0-----0-----0-----0--|-----2-----2-----2-----2--|--0--------------0--------|--0--------------0--------|
A||--------------------------|--0-----------0-----------|--------------------------|--------------------------|
E||--3-----------3-----------|--------------------------|--------------3-----------|--------------3-----------|

E||--------------------------|--------------------------|
B||--------3-----------------|--------3-----------------|
G||-----2-----2--------2-----|-----2-----2--------2-----|
D||--0--------------0--------|--0--------------0--------|
A||--------------------------|--------------------------|
E||--------------3-----------|--------------3-----------|