Difference between revisions of "You Ruined Everything/Tabs"

From JoCopedia
Jump to navigation Jump to search
 
Line 3: Line 3:
 
Original transcription by unmodisch, modified by Zodiac, further revised by suuuupaadave, added to by DanielFriesen, re-evaluated and cleaned up a bit by spiritofcat.
 
Original transcription by unmodisch, modified by Zodiac, further revised by suuuupaadave, added to by DanielFriesen, re-evaluated and cleaned up a bit by spiritofcat.
  
For more detailed information, Lesson a Week 16
+
For more detailed information, [http://www.youtube.com/watch?v=RNQuCPIok60 Lesson a Week 16]
http://www.youtube.com/watch?v=RNQuCPIok60
 
  
 
<pre>
 
<pre>

Latest revision as of 10:25, 5 October 2021



Original transcription by unmodisch, modified by Zodiac, further revised by suuuupaadave, added to by DanielFriesen, re-evaluated and cleaned up a bit by spiritofcat.

For more detailed information, Lesson a Week 16

s = slide
p = pull off

Verse Fingerpicking                  
  C     G       B7   Em       C     G   D             C     G       B7   Em       C     G   D           
|-------------|-------------|------------|----------|-------------|-------------|------------|
|-------------|-------------|-----------3|----------|-------------|-------------|-----------3|
|---0---0-----|---2--0-----0|---0---0---2|-2s4s2p0--|---0---0-----|---2--0-----0|---0---0---2|
|-----2----0--|---1----0----|-----2---0-0|----------|-----2----0--|---1----0----|-----2---0-0|
|-3----------0|-2--------2--|-3----------|----------|-3----------0|-2--------2--|-3----------|
|-------3-----|----2-0------|-------3----|----------|-------3-----|----2-0------|-------3----|


Alternate option for Verse Fingerpicking (Modified after listening very hard to the karaoke mp3 of this song)
  C     G       B7   Em       C     G   D              C     G       B7   Em       C     G   D            
|-------------|-------------|------------|----------|-------------|-------------|------------|
|-------------|-------------|-----------3|----------|-------------|-------------|-----------3|
|---0---0-----|---2--0------|---0---0---2|-2s4s2p0--|---0---0-----|---2--0------|---0---0---2|
|-----2----0--|-1-1----0----|-----2---0-0|----------|-----2----0--|-1-1----0----|-----2---0-0|
|-3-----------|-2--------2--|-3----------|----------|-3-----------|-2--------2--|-3----------|
|-------3-----|-------------|-------3----|----------|-------3-----|-------------|-------3----|


Chorus
   Bm          Em              Am       Bm     Cm                G     C G  D
     Once   my perfect world was gone    I     knew - You ruined everything    In the nicest
|------------------------------------------------------------------------------|
|-----3--------0--------------------1------3---4-----------------0-----1p0--3--|
|-----4---4----0---0----0-------------2------4-5-----------------0-----0----2--|
|-----------4-----2-------2-----------2------4-5-----------------0-----2p0--0--|
|--2----2----------------------0---------2-----3-------------------------------|
|--------------0------0------------------------------------------3--3----------|

  C     G       B7   Em       C     Dadd4 G
  way
|-------------|-------------|--------------|
|-------------|-------------|-------------0|
|---0---0-----|---2--0-----0|---0----0----0|
|-----2----0--|---1----0----|-----2----4---|
|-3----------0|-2--------2--|-3------5-----|
|-------3-----|----2-0------|-------------3|

Chords      
C     x320xx
G     3200xx
B7    x212xx
Em    022000
D     xx023x
Bm    x24432
Am    x02210
Cm    x35543
C/G   3x2010             Bridge:
D7    xx0212            |-----------------|------------------|----------------|-------------------|
Dadd4 x540xx            |3----------------|------------------|3---------------|-------------------|
Cadd9 x3203x            |-----------------|------------------|----------------|-------------------|
G/B   x2003x            |---0-0-0-0--3--2-|--5-----2-----2---|-0-0-0-0-0--3--2|--5----------------|
Bb    x1333x            |--3---3----3--1--|-4---4----1-----1-|3---3------3--1-|-4---4---1--3-1-3-1| 
Am7   x0201x            |-----------------|----3-------1-----|----------------|----3--------------|
Ab    466544
Eb    x6888x
F     133211
D7(2) x5453x

Verse
      C   G B7 Em
I was fine
  C        G      D
I pulled myself together
        C   G B7 Em
Just in time
   C       G     D
To throw myself away

Chorus
Bm      Em                Am   Bm Cm
Once my perfect world was gone I knew
           G        C/G G D7         
You ruined everything
              C  G B7 Em C Dadd4 G
In the nicest way

Verse
           C   G B7 Em
You should know
    C            G      D
How great things were before you
     C  G B7 Em
Even so
        C      G     D
They're better still today

Chorus
Bm      Em             Am  Bm Cm          
I can't think of who I was before
           G        C/G G D7         
You ruined everything
              C  G B7 Em C Dadd4 G
In the nicest way

Bridge
Cadd9        G/B
Bumps in the road remind us
Bb           Am7
Worst of the best behind us
Ab         Eb
Only good things will find us
F
Me and you
Cadd9        G/B
Days will be clear and sunny
Bb          Am7
We're gonna need more money
Ab        Eb
Baby, you know it's funny
D7                       C   G B7 Em
All those stories coming true

Verse
   C       G      D
Despite my better efforts
             C  G B7 Em
It's all for you
    C          G     D
The worst kind of cliche

Chorus
Bm      Em                Am  Bm  Cm
I'll be with you till the day you leave
           G        C/G G D7         
You ruined everything
              C  G B7 Em C Dadd4 G
In the nicest way